You know the day destroys the night
Night divides the day
Tried to run
Tried to hide
Break on through to the other side
Break on through to the other side
Break on through to the other side, yeah

We chased our pleasures here
Dug our treasures there
But can you still recall
The time we cried
Break on through to the other side
Break on through to the other side

Yeah!
C'mon, yeah

Everybody loves my baby
Everybody loves my baby
She get
She get
She get
She get high

I found an island in your arms
Country in your eyes
Arms that chain us
Eyes that lie
Break on through to the other side
Break on through to the other side
Break on through, oww!
Oh, yeah!

Made the scene
Week to week
Day to day
Hour to hour
The gate is straight
Deep and wide
Break on through to the other side
Break on through to the other side
Break on through
Break on through
Break on through
Break on through
Yeah, yeah, yeah, yeah
Yeah, yeah, yeah, yeah, yeah




Well, the clock says it's time to close now
I guess I'd better go now
I'd really like to stay here all night
The cars crawl past all stuffed with eyes
Street lights share their hollow glow
Your brain seems bruised with numb surprise
Still one place to go
Still one place to go

Let me sleep all night in your soul kitchen
Warm my mind near your gentle stove
Turn me out and I'll wander baby
Stumblin' in the neon groves

Well, your fingers weave quick minarets
Speak in secret alphabets
I light another cigarette
Learn to forget, learn to forget
Learn to forget, learn to forget

Let me sleep all night in your soul kitchen
Warm my mind near your gentle stove
Turn me out and I'll wander baby
Stumblin' in the neon groves

Well the clock says it's time to close now
I know I have to go now
I really want to stay here
All night, all night, all night




Before you slip into unconsciousness
I'd like to have another kiss
Another flashing chance at bliss
Another kiss, another kiss

The days are bright and filled with pain
Enclose me in your gentle rain
The time you ran was too insane
We'll meet again, we'll meet again

Oh tell me where your freedom lies
The streets are fields that never die
Deliver me from reasons why
You'd rather cry, I'd rather fly

The crystal ship is being filled
A thousand girls, a thousand thrills
A million ways to spend your time
When we get back, I'll drop a line


A TWENTIETH CENTURY FOX

Well, she's fashionably lean
And she's fashionably late
She'll never wreck a scene
She'll never break a date
But she's no drag
Just watch the way she walks

She's a twentieth century fox
She's a twentieth century fox
No tears, no fears
No ruined years, no clocks
She's a twentieth century fox, oh yeah

She's the queen of cool
And she's the lady who waits
Sent to manless school
It never hesitates
She won't waste time
On elementary talk

'Cause she's a twentieth century fox
She's a twentieth century fox
Got the world locked up
Inside a plastic box
She's a twentieth century fox, oh yeah
Twentieth century fox, oh yeah
Twentieth century fox
She's a twentieth century fox




Well, show me the way
To the next whiskey bar
Oh, don't ask why
Oh, don't ask why

Show me the way
To the next whiskey bar
Oh, don't ask why
Oh, don't ask why

For if we don't find
The next whiskey bar
I tell you we must die
I tell you we must die
I tell you, I tell you
I tell you we must die

Oh, moon of Alabama
We now must say goodbye
We've lost our good old mama
And must have whiskey, oh, you now why

Oh, moon of Alabama
We now must say goodbye
We've lost our good old mama
And must have whiskey, oh, you now why

Well, show me the way
To the next little girl
Oh, don't ask why
Oh, don't ask why

Show me the way
To the next little girl
Oh, don't ask why
Oh, don't ask why

For if we don't find
The next little girl
I tell you we must die
I tell you we must die
I tell you, I tell you
I tell you we must die

Oh, moon of Alabama
We now must say goodbye
We've lost our good old mama
And must have whiskey, oh, you now why




      Dm7                     Hm7
You know that it would be untrue
      Dm7                     Hm7
You know that I would be a liar
Dm7                Hm7
If I was to say to you
 Dm7                        Hm7
Girl, we couldn't get much higher

   C             D        G    Em
  Come on baby, light my fire
   C             D        G    Em
  Come on baby, light my fire
   C              G        A
  Try to set the night on fire

The time to hesitate is through
No time to wallow in the mire
Try now we can only lose
And our love become a funeral pyre

Come on baby, light my fire
Come on baby, light my fire
Try to set the night on fire, yeah

The time to hesitate is through
No time to wallow in the mire
Try now we can only lose
And our love become a funeral pyre

Come on baby, light my fire
Come on baby, light my fire
Try to set the night on fire, yeah

You know that it would be untrue
You know that I would be a liar
If I was to say to you
Girl, we couldn't get much higher

Come on baby, light my fire
Come on baby, light my fire
Try to set the night on fire
Try to set the night on fire
Try to set the night on fire
Try to set the night on fire




wHA, yeah!
C'mon, yeah
Yeah, c'mon, yeah
Yeah, c'mon
Oh, yeah, ma

Yeah, I'm a back door man
I'm a back door man
The men don't know
But the little girl understand

Hey, all you people that tryin' to sleep
I'm out to make it with my midnight dream, yeah
'Cause I'm a back door man
The men don't know
But the little girls understand
All right, yeah

You men eat your dinner
Eat your pork and beans
I eat more chicken
Than any man ever seen, yeah, yeah

I'm a back door man, wha
The men don't know
But the little girl understand

Well, I'm a back door man
I'm a back door man
Whoa, baby, I'm a back door man
The men don't know
But the little girls understand




I looked at you
You looked me
I smiled at you
You smiled at me

And we're on our way
No we can't turn back, babe
Yeah, we're on our way
And we can't turn back

'Cause it's too late
Too late, too late
Too late, too late

And we're on our way
No we can't turn back, babe
Yeah, we're on our way
And we can't turn back, yeah

C'mon, yeah!

I walked with you
You walked with me
I talked to you
You talked to me

And we're on our way
No we can't turn back, yeah
Yeah, we're on our way
And we can't turn back, yeah

'Cause it's too late
Too late, too late
Too late, too late

And we're on our way
No we can't turn back
Yeah, we're on our way
And we can't turn back

'Cause it's too late
Too late, too late
Too late, too late




Take the highway to the end of the night
End of the night, end of the night
Take a journey to the bright midnight
End of the night, end of the night

Realms of bliss, realms of light
Some are born to sweet delight
Some are born to sweet delight
Some are born to the endless night
End of the night, end of the night
End of the night, end of the night

Realms of bliss, realms of light
Some are born to sweet delight
Some are born to sweet delight
Some are born to the endless night
End of the night, end of the night
End of the night, end of the night




Time to live
Time to lie
Time to laugh
Time to die

Takes it easy, baby
Take it as it comes
Don't move too fast
And you want your love to last
Oh, you've been movin' much too fast

Time to walk
Time to run
Time to aim your arrows
At the sun

Takes it easy, baby
Take it as it comes
Don't move too fast
And you want your love to last
Oh, you've been movin' much too fast

Go real slow
You like it more and more
Take it as it comes
Specialize in havin' fun

Takes it easy, baby
Take it as it comes
Don't move too fast
And you want your love to last
Oh, you've been movin' much too fast
Movin' much too fast
Movin' much too fast




This is the end
Beautiful friend
This is the end
My only friend, the end

Of our elaborate plans, the end
Of everything that stands, the end
No safety or surprise, the end
I'll never look into your eyes...again

Can you picture what will be
So limitless and free
Desperately in need...of some...stranger's hand
In a...desperate land

Lost in a Roman...wilderness of pain
And all the children are insane
All the children are insane
Waiting for the summer rain, yeah

There's danger on the edge of town
Ride the King's highway, baby
Weird scenes inside the gold mine
Ride the highway west, baby

Ride the snake, ride the snake
To the lake, the ancient lake, baby
The snake is long, seven miles
Ride the snake...he's old, and his skin is cold

The west is the best
The west is the best
Get here, and we'll do the rest

The blue bus is callin' us
The blue bus is callin' us
Driver, where you taken' us

The killer awoke before dawn, he put his boots on
He took a face from the ancient gallery
And he walked on down the hall
He went into the room where his sister lived, and...then he
Paid a visit to his brother, and then he
He walked on down the hall, and
And he came to a door...and he looked inside
Father, yes son, I want to kill you
Mother...I want to...fuck you

C'mon baby, take a chance with us
C'mon baby, take a chance with us
C'mon baby, take a chance with us
And meet me at the back of the blue bus
Doin' a blue rock
On a blue bus
Doin' a blue rock
C'mon, yeah

Kill, kill, kill, kill, kill, kill

This is the end
Beautiful friend
This is the end
My only friend, the end

It hurts to set you free
But you'll never follow me
The end of laughter and soft lies
The end of nights we tried to die

This is the end








Yeah

Keep your eyes on the road, your hands upon the wheel
Keep your eyes on the road, your hands upon the wheel
Yeah, we're goin' to the Roadhouse
We're gonna have a real
Good time

Yeah, back at the Roadhouse they got some bungalows
 Yeah, back at the Roadhouse they got some bungalows
And that's for the people
Who like to go down slow

Let it roll, baby, roll
Let it roll, baby, roll
Let it roll, baby, roll
Let it roll, all night long

Do it, honey, do it

You gotta roll, roll, roll
You gotta thrill my soul, all right
Roll, roll, roll, roll
Thrill my soul
You gotta beep a gunk a chucha
Honk konk konk
You gotta each you puna
Each ya bop a luba
Each yall bump a kechonk
Ease sum konk
Ya, ride

Ashen lady, Ashen lady
Give up your vows, give up your vows
Save our city, save our city
Right now

Well, I woke up this morning, I got myself a beer
Well, I woke up this morning, and I got myself a beer
The future's uncertain, and the end is always near

Let it roll, baby, roll
Let it roll, baby, roll
Let it roll, baby, roll
Let it roll, all night long






There's blood in the streets, it's up to my ankles
She came
There's blood on the streets, it's up to my knee
She came
Blood on the streets in the town of Chicago
She came
Blood on the rise, it's following me
Think about the break of day

She came and then she drove away
Sunlight in her hair

She came
Blood in the streets runs a river of sadness
She came
Blood in the streets it's up to my thigh
She came
Yeah the river runs red down the legs of the city
She came
The women are crying rivers of weepin'

She came into town and then she drove away
Sunlight in her hair

Indians scattered on dawn's highway bleeding
Ghosts crowd the young child's fragile eggshell mind

Blood in the streets in the town of New Haven
Blood stains the roofs and the palm trees of Venice
Blood in my love in the terrible summer
Bloody red sun of Phantastic L.A.

Blood screams the pain as they chop off her fingers
Blood will be born in the birth of a nation
Blood is the rose of mysterious union

There's blood in the streets, it's up to my ankles
Blood in the streets, it's up to my knee
Blood in the streets in the town of Chicago
Blood on the rise, it's following me




She was a princess, Queen of the Highway
Sign on the road said:  "Take us to Madre"
No one could save her, save the blind tiger
He was a monster, black dressed in leather
She was a princess, Queen of the Highway

Now they are wedded, she is a good girl
Naked as children out in a meadow,
Naked as children, wild as can be,
Soon to have offspring, start it all over

Start at all over

American boy, American girl,
Most beautiful people in the world!
Son of a frontier Indian Swirl,
Dancing through the midnight whirl-pool
Formless hope it can
continue a little while longer








Tell all the people that you see
Follow me
Follow me down
Tell all the people that you see
Set them free
Follow me down

You tell them they don't have to run
We're gonna pick up everyone
Come out and take me by my hand
Gonna bury all our troubles in the sand, oh yeah

Can't you see the wonder at your feet
Your life's complete
Follow me down
Can't you see me growing, get your guns
The time has come
To follow me down

Follow me across the sea
Where milky babies seem to be
Molded, flowing revelry
With the one that set them free

Tell all the people that you see
It's just me
Follow me down

Tell all the people that you see
Follow me
Follow me down
Tell all the people that you see
We'll be free
Follow me down

Tell all the people that you see
It's just me
Follow me down
Tell all the people that you see
Follow me
Follow me down

Follow me down
You got to follow me down
Follow me down
Tell all the people that you see
We'll be free
Follow me down
Tell all the people you see
Follow me
You got to follow me down




Yeah!

Come on, come on, come on, come on
Now touch me, baby
Can't you see that I am not afraid?
What was that promise that you made?
Why won't you tell me what she said?
What was that promise that you made?

Now, I'm gonna love you
Till the heavens stop the rain
I'm gonna love you
Till the stars fall from the sky for you and I

Come on, come on, come on, come on
Now touch me, baby
Can't you see that I am not afraid?
What was that promise that you made?
Why won't you tell me what she said?
What was that promise that you made?

I'm gonna love you
Till the heavens stop the rain
I'm gonna love you
Till the stars fall from the sky for you and I

I'm gonna love you
Till the heavens stop the rain
I'm gonna love you
Till the stars fall from the sky for you and I




There will never be
Another one like you
There will never be
Another one who can
Do the things you do, oh

Will you give another chance?
Will you try, little try?
Please stop and you remember
We were together, anyway, all right

And if you have a certain evenin'
You could lend to me
I'd give it all right back to you
A how it has to be with you
I know your moves and your mind
And your mind
And your mind
And your mind
And your mind
And your mind
And your mind

Will you stop and think and wonder?
Just what you'll see
Out on the train yard
Nursin' penitentiary
It's gone, I cry out long

Go head, brother

Did you stop it to consider?
How it will feel
Cold, grinded grizzly bear jaws
Hot on your heels

Do you often stop and whisper?
It's Saturday's shore
The whole world's a savior
Who could ever, ever, ever
Ever, ever, ever
Ask for more?

Do you remember?
Will you stop?
Will you stop?
The pain

And there will never be
Another one like you
There will never be
Another one who can
Do the things you do, oh

Will you give another chance?
Will you try, little try?
Please stop and you remember
We were together, anyway, all right

How you must of think and wondered
How I must feel
Out on the meadows
While you run the field
I'm alone for you
And I cry

The sweat, look at it
Optical promise
Heh, heh, heh
You'll be dead and in hell
Before I'm born
Sure thing
Brides maid
The only solution
Isn't it amazing?




Yuppa tuppa ta ta
Yuppa tuppa chic ta
Do thang, do thang
Do tuppa thang cho
Rikki te tatar
Te teen tar
De dow dow
Ha, ha, ha, ha
Ha, ha, ha, ha

Yeah
Yeah please me, yeah
Easy, babe
Please me

Please, please listen to me children
Please, please listen to me children
Please, please listen to me children
Said please, please listen to me children
You are the ones who will rule the world

Listen to me children
Listen to me children
Please, please listen to me children
Please, please listen to me children
You are the ones who will rule the world, ha

You gotta please me
All night
Please, please listen to me children
Said please, please listen to me children
Please, yeah, please me
I'm askin' you

Please, please listen to me children
Please, please listen to me children
Please, please listen to me children
Please, my children
Please, children
Please, children




And I know
It will be
An easy ride, all right
And I know
It will be
Easy ride, ok

The mask that you wore
My fingers would explore
Costume of control
Excitement soon unfolds

And I know
It will be
Easy ride, yeah
Joy, for vaguely
Which' your pride
Which' your pride, yeah

Black polished stone
Black polished stone
I see your eyes
Like burnin' glass
Like burnin' glass
Hear you smile, smile, babe

The mask that you wore
My fingers would explore
Costume of control
Excitement soon unfolds, hey

Easy, baby

Call the queen, now
Be my bride
Ragin' darkness
By my side
Seize the summer
In your pride
Take the winter
In your stride

Let's ride, yeah
Easy, easy, easy
Easy, easy, ease, easy
Yeah, yeah, ride
Dum, dum, dum, dum
Dum, dum, dum
Ride




All right

Wild child full of grace
Savior of the human race
Your cool face

Natural child, terrible child
Not your mother's or your father's child
Your our child, screamin' wild

An ancient rulage of grains
And the trees of the night
Ha, ha, ha, ha

With hunger at her heels
Freedom in her eyes
She dances on her knees
Pirate prince at her side
Stirrin' into a hollow idols eyes

Wild child full of grace
Savior of the human race
Your cool face
Your cool face
Your cool face

Do you remember when we were in Africa?




Poor Otis dead and gone
Left me here to sing his song
Pretty little girl with the red dress on
Poor Otis dead and gone

Yeah, back down, turn around slowly
Try it again, remembering when
It was easy, try it again
Much to easy, rememberin' when

All right, look at my shoes
Not quite the walkin' blues
Don't fight, too much to lose
Can't fight the runnin' blues

Well, I've got the runnin' blues
Runnin' away, back to L.A.
Got to find the dock of the bay
Maybe find it back in L.A.

Runnin' scared
Runnin' blue
Goin' so fast
What'll I do

Well, I've got the runnin' blues
Runnin' away, back to L.A.
Got to find the dock of the bay
Maybe find it back in L.A.

All right, look at my shoes
Not quite the walkin' blues
Don't fight, too much to lose
Can't fight the runnin' blues

All right, look at my shoes
Not quite the walkin' blues
Don't fight, too much to lose
Can't fight the runnin' blues




Wishful crystal
Water covers everything in blue
Coolin' water

Wishful sinful
Our love is beautiful to see
I know where I would like to be
Right back where I came

Wishful, sinful, wicked blue
Water covers you
Wishful, sinful, wicked you
Can't escape the blue

Magic risin'
Sun is shinin' deep beneath the sea
But not enough for you and me and sunshine
Love to hear the wind cry

Wishful sinful
Our love is beautiful to see
I know where I would like to be
Right back where I came

Wishful, sinful, wicked blue
Water covers you
Wishful, sinful, wicked you
Can't escape the blue

Love to hear the wind cry
Love to hear you cry, yeah, yeah




When I was back there in seminary school
There was a person there
Who put forth the proposition
That you can petition the Lord with prayer
Petition the lord with prayer
Petition the lord with prayer
You cannot petition the lord with prayer!

Can you give me sanctuary
I must find a place to hide
A place for me to hide

Can you find me soft asylum
I can't make it anymore
The Man is at the door

Peppermint, miniskirts, chocolate candy
Champion sax and a girl named Sandy
There's only four ways to get unraveled
One is to sleep and the other is travel, da da
One is a bandit up in the hills
One is to love your neighbor 'till
His wife gets home

Catacombs
Nursery bones
Winter women
Growing stones
Carrying babies
To the river

Streets and shoes
Avenues
Leather riders
Selling news
The monk bought lunch

Ha ha, he bought a little
Yes, he did
Woo!
This is the best part of the trip
This is the trip, the best part
I really like
What'd he say?
Yeah!
Yeah, right!
Pretty good, huh
Huh!
Yeah, I'm proud to be a part of this number

Successful hills are here to stay
Everything must be this way
Gentle streets where people play
Welcome to the Soft Parade

All our lives we sweat and save
Building for a shallow grave
Must be something else we say
Somehow to defend this place
Everything must be this way
Everything must be this way, yeah

The Soft Parade has now begun
Listen to the engines hum
People out to have some fun
A cobra on my left
Leopard on my right, yeah

The deer woman in a silk dress
Girls with beads around their necks
Kiss the hunter of the green vest
Who has wrestled before
With lions in the night

Out of sight!
The lights are getting brighter
The radio is moaning
Calling to the dogs
There are still a few animals
Left out in the yard
But it's getting harder
To describe sailors
To the underfed

Tropic corridor
Tropic treasure
What got us this far
To this mild equator?

We need someone or something new
Something else to get us through, yeah, c'mon

Callin' on the dogs
Callin' on the dogs
Oh, it's gettin' harder
Callin' on the dogs
Callin' in the dogs
Callin' all the dogs
Callin' on the gods

 You gotta meet me
Too late, baby
Slay a few animals
At the crossroads
Too late
All in the yard
But it's gettin' harder
By the crossroads
You gotta meet me
Oh, we're goin', we're goin great
At the edge of town
Tropic corridor
Tropic treasure
Havin' a good time
Got to come along
What got us this far
To this mild equator?
Outskirts of the city
You and I
We need someone new
Somethin' new
Somethin' else to get us through
Better bring your gun
Better bring your gun
Tropic corridor
Tropic treasure
We're gonna ride and have some fun

When all else fails
We can whip the horse's eyes
And make them sleep
And cry







Strange days have found us
Strange days have tracked us down
They're going to destroy
Our casual joys
We shall go on playing
Or find a new town

Yeah!

Strange eyes fill strange rooms
Voices will signal their tired end
The hostess is grinning
Her guests sleep from sinning
Hear me talk of sin
And you know this is it

Yeah!

Strange days have found us
And through their strange hours
We linger alone
Bodies confused
Memories misused
As we run from the day
To a strange night of stone




You're lost little girl
You're lost little girl
You're lost
Tell me who
Are you?

I think that you know what to do
Impossible? Yes, but it's true
I think that you know what to do, yeah
I'm sure that you know what to do

You're lost little girl
You're lost little girl
You're lost
Tell me who
Are you?

I think that you know what to do
Impossible? Yes, but it's true
I think that you know what to do, girl
I'm sure that you know what to do

You're lost little girl
You're lost little girl
You're lost




Love me two times, baby
Love me twice today
Love me two times, girl
I'm goin' away
Love me two times, girl
One for tomorrow
One just for today
Love me two times
I'm goin' away

Love me one time
I could not speak
Love me one time
Yeah, my knees got weak
But love me two times, girl
Last me all through the week
Love me two times
I'm goin' away
Love me two times
I'm goin' away

Oh, yes

Love me one time
I could not speak
Love me one time, baby
Yeah, my knees got weak
But love me two times, girl
Last me all through the week
Love me two times
I'm goin' away

Love me two times, babe
Love me twice today
Love me two times, babe
'Cause I'm goin' away
Love me two time, girl
One for tomorrow
One just for today
Love me two times
I'm goin' away
Love me two times
I'm goin' away
Love me two times
I'm goin' away




Unhappy girl
Left all alone
Playing solitaire
Playing warden to your soul
You are locked in a prison
Of your own devise
And you can't believe
What it does to me
To see you
Crying

Unhappy girl
Tear your web away
Saw thru all your bars
Melt your cell today
You are caught in a prison
 Of your own devise

Unhappy girl
Fly fast away
Don't miss your chance
To swim in mystery
You are dying in a prison
Of your own devise




When the still sea conspires an armor
And her sullen and aborted
Currents breed tiny monsters
True sailing is dead
Awkward instant
And the first animal is jettisoned
Legs furiously pumping
Their stiff green gallop
And heads bob up
Poise
Delicate
Pause
Consent
In mute nostril agony
Carefully refined
And sealed over




Let's swim to the moon, uh huh
Let's climb through the tide
Penetrate the evenin' that the
City sleeps to hide

Let's swim out tonight, love
It's our turn to try
Parked beside the ocean
On our moonlight drive

Let's swim to the moon, uh huh
Let's climb through the tide
Surrender to the waiting worlds
That lap against our side

Nothin' left open
And no time to decide
We've stepped into a river
On our moonlight drive

Let's swim to the moon
Let's climb through the tide
You reach your hand to hold me
But I can't be your guide

Easy, I love you
As I watch you glide
Falling through wet forests
On our moonlight drive, baby
Moonlight drive

Come on, baby, gonna take a little ride
Down, down by the ocean side
Gonna get real close
Get real tight
Baby gonna drown tonight
Goin' down, down, down




 Em                  Am             Em
People are strange when you're a stranger
 Am        Em     H           Em
Faces look ugly when you're alone
Women seem wicked when you're unwanted
Streets are uneven when you're down

  Em
  When you're strange
   G                     H
  Faces come out of the rain
                 H
  When you're strange
   G                     H
  No one remembers your name
  When you're strange
  When you're strange
  When you're strange

People are strange when you're a stranger
Faces look ugly when you're alone
Women seem wicked when you're unwanted
Streets are uneven when you're down

When you're strange
Faces come out of the rain
When you're strange
No one remembers your name
When you're strange
When you're strange
When you're strange

When you're strange
Faces come out of the rain
When you're strange
No one remembers your name
When you're strange
When you're strange
When you're strange




My eyes have seen you
My eyes have seen you
My eyes have seen you
Stand in your door
When we meet inside
Show me some more
Show me some more
Show me some more

My eyes have seen you
My eyes have seen you
My eyes have seen you
Turn and stare
Fix your hair
Move upstairs
Move upstairs
Move upstairs

My eyes have seen you
My eyes have seen you
My eyes have seen you
Free from disguise
Gazing on a city under
Television skies
Television skies
Television skies

My eyes have seen you
My eyes have seen you
Eyes have seen you
Let them photograph your soul
Memorize your alleys
On an endless roll
Endless roll
  . . .
Endless roll


I CAN'T SEE YOUR FACE IN MY MIND

I can't see your face in my mind
I can't see your face in my mind
Carnival dogs
Consume the lines
Can't see your face in my mind

Don't you cry
Baby, please don't cry
And don't look at me
With your eyes

I can't seem to find the right lie
I can't seem to find the right lie
Insanity's horse
Adorns the sky
Can't seem to find the right lie

Carnival dogs
Consume the lines
Can't see your face in my mind

Don't you cry
Baby, please don't cry
I won't need your picture
Until we say goodbye




Yeah, c'mon

When the music's over
When the music's over, yeah
When the music's over
Turn out the lights
Turn out the lights
Turn out the lights, yeah

When the music's over
When the music's over
When the music's over
Turn out the lights
Turn out the lights
Turn out the lights

For the music is your special friend
Dance on fire as it intends
Music is your only friend
Until the end
Until the end
Until the end

Cancel my subscription to the Resurrection
Send my credentials to the House of Detention
I got some friends inside

The face in the mirror won't stop
The girl in the window won't drop
A feast of friends
 "Alive!" she cried
Waitin' for me
Outside!

Before I sink
Into the big sleep
I want to hear
I want to hear
The scream of the butterfly

Come back, baby
Back into my arm
We're gettin' tired of hangin' around
Waitin' around with our heads to the ground

I hear a very gentle sound
Very near yet very far
Very soft, yeah, very clear
Come today, come today

What have they done to the earth?
What have they done to our fair sister?
Ravaged and plundered and ripped her and bit her
Stuck her with knives in the side of the dawn
And tied her with fences and dragged her down

I hear a very gentle sound
With your ear down to the ground
We want the world and we want it...
We want the world and we want it...
Now
Now?
Now!

Persian night, babe
See the light, babe
Save us!
Jesus!
 Save us!

So when the music's over
When the music's over, yeah
When the music's over
Turn out the lights
Turn out the lights
Turn out the lights

Well the music is your special friend
Dance on fire as it intends
Music is your only friend
Until the end
Until the end
Until the end!







Hello, I love you
Won't you tell me your name?
Hello, I love you
Let me jump in your game
Hello, I love you
Won't you tell me your name?
Hello, I love you
Let me jump in your game

She's walking down the street
Blind to every eye she meets
Do you think you'll be the guy
To make the queen of the angels sigh?

Hello, I love you
Won't you tell me your name?
Hello, I love you
Let me jump in your game
Hello, I love you
Won't you tell me your name?
Hello, I love you
Let me jump in your game

She holds her head so high
Like a statue in the sky
Her arms are wicked, and her legs are long
When she moves my brain screams out this song

Sidewalk crouches at her feet
Like a dog that begs for something sweet
Do you hope to make her see, you fool?
Do you hope to pluck this dusky jewel?

Hello, Hello, Hello, Hello, Hello, Hello, Hello
I want you
Hello
I need my baby
Hello, Hello, Hello, Hello




She lives on Love Street
Lingers long on Love Street
She has a house and garden
I would like to see what happens

She has robes and she has monkeys
Lazy diamond studded flunkies
She has wisdom and knows what to do
She has me and she has you

She has wisdom and knows what to do
She has me and she has you

I see you live on Love Street
There's this store where the creatures meet
I wonder what they do in there
Summer Sunday and a year
I guess I like it fine, so far

She lives on Love Street
Lingers long on Love Street
She has a house and garden
I would like to see what happens

La, la, la, la, la, la, la
La, la, la, la, la, la, la
La, la, la, la, la, la, la
La, la, la, la, la, la, la
La, la, la, la, la, la, la




Not to touch the earth
Not to see the sun
Nothing left to do, but
Run, run, run
Let's run
Let's run

House upon the hill
Moon is lying still
Shadows of the trees
Witnessing the wild breeze
C'mon baby run with me
Let's run

Run with me
Run with me
Run with me
Let's run

The mansion is warm, at the top of the hill
Rich are the rooms and the comforts there
Red are the arms of luxuriant chairs
And you won't know a thing till you get inside

Dead president's corpse in the driver's car
The engine runs on glue and tar
Come on along, not goin' very far
To the East to meet the Czar

Run with me
Run with me
Run with me
Let's run

Whoa!

Some outlaws lived by the side of a lake
The minister's  daughter's in love with the snake
Who lives in a well by the side of the road
Wake up, girl, we're almost home

Ya, c'mon!

We should see the gates by mornin'
We should be inside the evenin'

Sun, sun, sun
Burn, burn, burn
Soon, soon, soon
Moon, moon, moon
I will get you
Soon!
Soon!
Soon!

I am the Lizard King
I can do anything




Summer's almost gone
Summer's almost gone
Almost gone
Yeah, it's almost gone
Where will we be
When the summer's gone?

Morning found us calmly unaware
Noon burn gold into our hair
At night, we swim the laughin' sea
When summer's gone
Where will we be
Where will we be
Where will we be

Morning found us calmly unaware
Noon burn gold into our hair
At night, we swim the laughin' sea
When summer's gone
Where will we be

Summer's almost gone
Summer's almost gone
We had some good times
But they're gone
The winter's comin' on
Summer's almost gone




Wintertime winds blow cold the season
Fallen in love, I'm hopin' to be
Wind is so cold, is that the reason?
Keeping you warm, your hands touching me

Come with me dance, my dear
Winter's so cold this year
You are so warm
My wintertime love to be

Winter time winds blue and freezin'
Comin' from northern storms in the sea
Love has been lost, is that the reason?
Trying desperately to be free

Come with me dance, my dear
Winter's so cold this year
And you are so warm
My wintertime love to be

La, la, la, la

Come with me dance, my dear
Winter's so cold this year
You are so warm
My wintertime love to be




Wait until the war is over
And we're both a little older
The unknown soldier

Breakfast where the news is read
Television children fed
Unborn living, living, dead
Bullet strikes the helmet's head

And it's all over
For the unknown soldier
It's all over
For the unknown soldier

Hut
Hut
Hut ho hee up
Hut
Hut
Hut ho hee up
Hut
Hut
Hut ho hee up
Comp'nee
Halt
Preeee-zent!
Arms!

Make a grave for the unknown soldier
Nestled in your hollow shoulder
The unknown soldier

Breakfast where the news is read
Television children fed
Bullet strikes the helmet's head

And, it's all over
The war is over
It's all over
The war is over
Well, all over, baby
All over, baby
Oh, over, yeah
All over, baby
Wooooo, hah-hah
All over
All over, baby
Oh, woa-yeah
All over
All over
Heeeeyyyy




Carry me Caravan take me away
Take me to Portugal, take me to Spain
Andalusia with fields full of grain
I have to see you again and again
Take me, Spanish Caravan
Yes, I know you can

Trade winds find Galleons lost in the sea
I know where treasure is waiting for me
Silver and gold in the mountains of Spain
I have to see you again and again
Take me, Spanish Caravan
Yes, I know you can




My wild love went ridin'
She rode all the day
She wrote to the devil
And asked him to pay
The devil was wiser
It's time to repent
He asked her to give back
The money she spent

My wild love went ridin'
She rode to the sea
She gathered together
Some shells for her head
She rode and she rode on
She rode for a while
Then stopped for an evenin'
And lay her head down

She rode on to Christmas
She rode to the farm
She rode to Japan
And we entered a town
By this time the river
Had changed one degree
She asked for the people
To let her go free

My wild love is crazy
She screams like a bird
She moans like a cat
When she wants to be heard
My wild love went ridin'
She rode for an hour
She rode and she rested
And then she rode on
Ride, c'mon




We could be so good together
Ya, so good together
We could be so good together
Ya, we could, I know we could

Tell you lies
I tell you wicked lies
Tell you lies
Tell you wicked lies

Tell you 'bout the world that we'll invent
Wanton world without lament
Enterprise, expedition
Invitation and invention

Ya, so good together
Ah, so good together
We could be so good together
Ya, we could, know we could

Alright!

Do da do do do do do bup bup de day

We could be so good together
Ya, so good together
We could be so good together
Ya, we could, know we could

Tell you lies
Tell you wicked lies
Tell you lies
Tell you wicked lies

The time you wait subtracts the joy
Beheads the angels you destroy
Angels fight, angels cry
Angels dance and angels die

Ya, so good together
Ah, but so good together
We could be so good together
Ya, we could, know we could




Please believe me
The river told me
Very softly
Want you to hold me, ooo

Free fall flow, river flow
On and on it goes
Breath under water 'till the end
Free fall flow, river flow
On and on it goes
Breath under water 'till the end
Yes, the river knows

Please believe me
If you don't need me
I'm going, but I need a little time
I promised I would drown myself in mysticated wine

Please believe me
The river told me
Very softly
Want you to hold me, ooo

I'm going, but I need a little time
I promised I would drown myself in mysticated wine

Free fall flow, river flow
On and on it goes
Breath under water 'till the end
Free fall flow, river flow
On and on it goes
Breath under water 'till the end




yeah, c'mon
Love my girl
She lookin' good
C'mon
One more

Five to one, baby
One in five
No one here gets out alive, now
You get yours, baby
I'll get mine
Gonna make it, baby
If we try

The old get old
And the young get stronger
May take a week
And it may take longer
They got the guns
But we got the numbers
Gonna win, yeah
We're takin' over
Come on!

Yeah!

Your ballroom days are over, baby
Night is drawing near
Shadows of the evening crawl across the years
Ya walk across the floor with a flower in your hand
Trying to tell me no one understands
Trade in your hours for a handful dimes
Gonna' make it, baby, in our prime

Come together one more time
Get together one more time
Get together one more time
Get together, aha
Get together one more time!
Get together one more time!
Get together one more time
Get together one more time
Get together, gotta, get together

Ohhhhhhhh!

Hey, c'mon, honey
You won't have along wait for me, baby
I'll be there in just a little while
You see, I gotta go out in this car with these people and...

Get together one more time
Get together one more time
Get together, got to
Get together, got to
Get together, got to
Take you up in my room and...
Hah-hah-hah-hah-hah
Love my girl
She lookin' good, lookin' real good
Love ya, c'mon









Uh!
Uha!
Gedu!

I live uptown
I live downtown
I live all around

I had money, and I had none
I had money, and I had none
But I never been so broke
That I couldn't leave town

I'm a Changeling
See me change
I'm a Changelin'
See me change

I'm the air you breath
Food you eat
Friends your greet
In the sullen street, wow

See me change
See me change, you

I live uptown
I live downtown
I live all around

I had money, yeah, and I had none
I had money, yeah, and I had none
But I never been so broke
That I couldn't leave town

Well, I'm the air you breath
Food you eat
Friends your greet
In the sullen street, wow

Ew ma!
Uh, ah!

You gotta see me change
See me change
Yeah, I'm leavin' town
On a midnight train
Gotta see me change
Change, change, change
Change, change, change
Change, change, change
Change, change, change
Woa, change, change, change




Don't ya love her madly
Don't ya need her badly
Don't ya love her ways
Tell me what you say

Don't ya love her madly
Wanna be her daddy
Don't ya love her face
Don't ya love her as she's walkin' out the door
Like she did one thousand times before

Don't ya love her ways
Tell me what you say
Don't ya love her as she's walkin' out the door

All your love
All your love
All your love
All your love

All your love is gone
So sing a lonely song
Of a deep blue dream
Seven horses seem to be on the mark

Yeah, don't you love her
Don't you love her as she's walkin' out the door

All your love
All your love
All your love

Yeah, all your love is gone
So sing a lonely song
Of a deep blue dream
Seven horses seem to be on the mark

Well, don't ya love her madly
Don't ya love her madly
Don't ya love her madly




Well, I've been down so Goddamn long
That it looks like up to me
Well, I've been down so very damn long
That it looks like up to me
Yeah, why don't one you people
C'mon and set me free

I said, warden, warden, warden
Won't you break your lock and key
I said, warden, warden, warden
Won't ya break your lock and key
Yeah, come along here, mister
C'mon and let the poor boy be

Baby, baby, baby
Won't you get down on your knees
Baby, baby, baby
Won't you get down on your knees
C'mon little darlin'
C'mon and give your love to me, oh yeah

Well, I've been down so Goddamn long
That it looks like up to me
Well, I've been down so very damn long
That it looks like up to me
Yeah, why don't one you people
C'mon, c'mon, c'mon  and set me free




The cars hiss by my window
Like the waves down on the beach
The cars hiss by my window
Like the waves down on the beach
I got this girl beside me
But she's out of reach

Headlight through my window
Shinin' on the wall
Headlight through my window
Shinin' on the wall
Can't hear my baby
Though I called and called

Yeah, right
Woo!

Windows started tremblin'
With a sonic boom
Windows started tremblin'
With a sonic boom, boom
A cold girl'll kill you
In a darkened room

Yeah, woo
Ride
Ride on
Weooooo!
Wawa, eooo!
Oooo, owa, owaaa!
Wa, waaaaea!
Ooo, wa, wa, wa, wa, waa!
Uh-huh




Well, I just got into town about an hour ago
Took a look around, see which way the wind blow
Where the little girls in their Hollywood bungalows

Are you a lucky little lady in The City of Light
Or just another lost angel...City of Night
City of Night, City of Night, City of Night, woo, c'mon

L.A. Woman, L.A. Woman
L.A. Woman Sunday afternoon
L.A. Woman Sunday afternoon
L.A. Woman Sunday afternoon
Drive thru your suburbs
Into your blues, into your blues, yeah
Into your blue-blue Blues
Into your blues, ohh, yeah

I see your hair is burnin'
Hills are filled with fire
If they say I never loved you
You know they are a liar
Drivin' down your freeways
Midnite alleys roam
Cops in cars, the topless bars
Never saw a woman...
So alone, so alone
So alone, so alone

Motel Money Murder Madness
Let's change the mood from glad to sadness

Mr. Mojo Risin', Mr. Mojo Risin'
Mr. Mojo Risin', Mr. Mojo Risin'
Got to keep on risin'
Mr. Mojo Risin', Mr. Mojo Risin'
Mojo Risin', gotta Mojo Risin'
Mr. Mojo Risin', gotta keep on risin'
Risin', risin'
Gone risin', risin'
I'm gone risin', risin'
I gotta risin', risin'
 Well, risin', risin'
I gotta, wooo, yeah, risin'
Woah, ohh yeah

Well, I just got into town about an hour ago
Took a look around, see which way the wind blow
Where the little girls in their Hollywood bungalows

Are you a lucky little lady in The City of Light
Or just another lost angel...City of Night
City of Night, City of Night, City of Night, woah, c'mon

L.A. Woman, L.A. Woman
L.A. Woman, your my woman
Little L.A. Woman, Little L.A. Woman
L.A. L.A. Woman Woman
L.A. Woman c'mon




yeeeaahh

I took a trip down to L'America
To trade some beads for a pint of gold
I took a trip down to L'America
To trade some beads for a pint of gold
L'America, L'America, L'America
L'America, L'America, L'America

C'mon people, don't ya look so down
You know the rain man's comin' ta town
Change the weather, change your luck
And then he'll teach ya how ta...find yourself
L'America

Friendly strangers came to town
All the people put them down
But, the women loved their ways
Come again some other day
Like the gentle rain
Like the gentle rain that falls

I took a trip down to L'America
To trade some beads for a pint of gold
I took a trip down to L'America
To trade some beads for a pint of gold
L'America, L'America, L'America
L'America, L'America, L'America
L'America




wHat are they doing in the Hyacinth House?
What are they doing in the Hyacinth House?
To please the lions in this day

I need a brand new friend who doesn't bother me
I need a brand new friend who doesn't trouble me
I need someone and who doesn't need me

I see the bathroom is clear
I think that somebody's near
I'm sure that someone is following me, oh yeah

Why did you throw the Jack of Hearts away?
Why did you throw the Jack of Hearts away?
It was the only card in the deck that I had left to play

And I'll say it again, I need a brand new friend
And I'll say it again, I need a brand new friend
And I'll say it again, I need a brand new friend, the end




Well, I'm the Crawlin' King Snake
And I rule my den
I'm the Crawlin' King Snake
And I rule my den
Yeah, don't mess 'round with my mate
Gonna use her for myself

Caught me crawlin', baby, window
Grass is very high
Keep on crawlin' till the day I die
Crawlin' King Snake
And I rule my den
You better give me what I want
Gonna crawl no more

Caught me crawlin', baby
Crawlin' 'round your door
Seein' everything I want
I'm gonna crawl on your floor
Let's crawl
And I rule my den
C'mon, give me what I want
Ain't gonna crawl no more

Alright, crawl a while

C'mon crawl
C'mon crawl
Get on out there on your hands and knees, baby
Crawl all over me
Just like the spider on the wall
Ooo, we gonn' crawl, one more

Well, I'm the Crawlin' King Snake
And I rule my den
Call me the Crawlin' King Snake
And I rule my den
Yeah, don't mess 'round with my mate
Gonna use her for myself




I wanna tell you 'bout Texas Radio and the Big Beat
Comes out of the Virginia swamps
Cool and slow with plenty of precision
With a back beat narrow and hard to master

Some call it heavenly in it's brilliance
Others, mean and ruthful of the Western dream
I love the friends I have gathered together on this thin raft
We have constructed pyramids in honor of our escaping
This is the land where the Pharaoh died

The Negroes in the forest brightly feathered
They are saying, "Forget the night.
Live with us in forests of azure.
Out here on the perimeter there are no stars
Out here we is stoned - immaculate."

Listen to this, and I'll tell you 'bout the heartache
I'll tell you 'bout the heartache and the lose of God
I'll tell you 'bout the hopeless night
The meager food for souls forgot
I'll tell you 'bout the maiden with raw iron soul

I'll tell you this
No eternal reward will forgive us now for wasting the dawn

I'll tell you 'bout Texas Radio and the Big Beat
Soft drivin', slow and mad, like some new language

Now, listen to this, and I'll tell you 'bout the Texas
I'll tell you 'bout the Texas Radio
I'll tell you 'bout the hopeless night
Wandering the Western dream
Tell you 'bout the maiden with raw iron soul




Riders on the storm
Riders on the storm
Into this house we're born
Into this world we're thrown
Like a dog without a bone
An actor out alone
Riders on the storm

There's a killer on the road
His brain is squirmin' like a toad
Take a long holiday
Let your children play
If ya give this man a ride
Sweet memory will die
Killer on the road, yeah

Girl ya gotta love your man
Girl ya gotta love your man
Take him by the hand
Make him understand
The world on you depends
Our life will never end
Gotta love your man, yeah

Wow!

Riders on the storm
Riders on the storm
Into this house we're born
Into this world we're thrown
Like a dog without a bone
An actor out alone
Riders on the storm

Riders on the storm
Riders on the storm
Riders on the storm
Riders on the storm
Riders on the storm




lions in the street and roaming
Dogs in heat, rabid, foaming
A beast caged in the heart of a city
The body of his mother
Rotting in the summer ground
He fled the town

He went down South and crossed the border
Left the chaos and disorder
Back there over his shoulder

One morning he awoke in a green hotel
With a strange creature groaning beside him
Sweat oozed from its shiny skin

Is everybody in?
The ceremony is about to begin


Wake up!
You can't remember where it was
Had this dream stopped?

The snake was pale gold
Glazed and shrunken
We were afraid to touch it
The sheets were hot dead prisons

Now, run to the mirror in the bathroom
Look!
I can't live thru each slow century of her moving
I let my cheek slide down
The cool smooth tile
Feel the good cold stinging blood
The smooth hissing snakes of rain . . .


Once I had, a little game
I liked to crawl back into my brain
I think you know the game I mean
I mean the game called 'go insane'

Now you should try this little game
Just close your eyes forget your name
Forget the world forget the people
And we'll erect a different steeple

This little game is fun to do
Just close your eyes no way to lose
And I'm right there I'm going too
Release control we're breaking thru


Way back deep into the brain
Back where there's never any pain
And the rain falls gently on the town
And in the labyrinth of streams
Beneath, the quiet unearthly presence of
 Nervous hill dwellers in the gentle hills around
Reptiles abounding
Fossils, caves, cool air heights

Each house repeats a mold
Windows rolled
Beast car locked in against morning
All now sleeping
Rugs silent, mirrors vacant
Dust blind under the beds of lawful couples
Wound in sheets
And daughters, smug
With semen eyes in their nipples

Wait
There's been a slaughter here


(Don't stop to speak or look around
Your gloves and fan are on the ground
We're getting out of town
We're going on the run
And you're the one I want to come)


Not to touch the earth
Not to see the sun
Nothing left to do, but
Run, run, run
Let's run

House upon the hill
Moon is lying still
Shadows of the trees
Witnessing the wild breeze
C'mon baby run with me
Let's run

Run with me
Run with me
Run with me
Let's run

The mansion is warm, at the top of the hill
Rich are the rooms and the comforts there
Red are the arms of luxuriant chairs
And you won't know a thing till you get inside

Dead president's corpse in the driver's car
The engine runs on glue and tar
C'mon along, we're not going very far
To the East to meet the Czar


Some outlaws lived by the side of the lake
The minister's daughter's in love with the snake
Who lives in a well by the side of the road
Wake up, girl!  We're almost home

Sun, sun, sun
Burn, burn, burn
Soon, soon, soon
Moon, moon, moon
I will get you
Soon!
Soon!
Soon!


Let the carnival bells ring
Let the serpent sing
Let everything

We came down
The rivers and highways
We came down from
Forests and falls

We came down from
Carson and Springfield
We came down from
Phoenix enthralled
And I can tell you
The names of the Kingdom
I can tell you
The things that you know
Listening for a fistful of silence
Climbing valleys into the shade


'I am the Lizard King
I can do anything
I can make the earth stop in its tracks
I made the blue cars go away

For seven years I dwelt
In the loose palace of exile
Playing strange games
With the girls of the island

Now I have come again
To the land of the fair, and the strong, and the wise

Brothers and sisters of the pale forest
O Children of Night
Who among you will run with the hunt?

Now Night arrives with her purple legion
Retire now to your tents and to your dreams
Tomorrow we enter the town of my birth
I want to be ready'




     All  songs written  by The Doors except 5  by Weill -  Bretch  and 7 by
Dixon - Burnett




     You know the day destroys the night
     Night divides the day
     Tried to run
     Tried to hide
     Break on through to the other side
     Break on through to the other side
     Break on through to the other side
     We chased our pleasures here
     Dug our treasures there
     But can you still recall
     The time we cried
     Break on through to the other side
     Break on through to the other side
     Break on through to the other side
     Everybody loves my baby
     Everybody loves my baby
     She gets, she gets
     She gets, she gets
     I found an island in your arms
     A country in your eyes
     Arms that chain us
     Eyes that lied
     Break on through to the other side
     Break on through to the other side
     Break on through to the other side
     Made the scene from week to week
     Day to day, hour to hour
     The gate is straight
     Deep and wide
     Break on through to the other side
     Break on through to the other side
     Break on through to the other side
     Break on through, break on through
     Break on through, break on through
     Yeah, yeah, yeah,
     Yeah, yeah, yeah, . . .




     Well, the clock says it's time to close now
     I guess I'd better go now
     I'd really like to stay here all night
     The cars crawl past all stuffed with eyes
     Street lights share their hollow glow
     Your brain seems bruised with numb surprise
     Still one place to go
     Still one place to go
     Let me sleep all night in your soul kitchen
     Warm my mind near your gentle stove
     Turn me out and I'll wander, baby
     Stumbling in the neon groves
     Your fingers weave quick minarets
     Speak in secret alphabets
     I light another cigarette
     Learn to forget, learn to forget
     Learn to forget, learn to forget
     Let me sleep all night in your soul kitchen
     Warm my mind near your gentle stove
     Turn me out and I'll wander, baby
     Stumbling in the neon groves
     Well the clock says it's time to close now
     I know I have to go now
     I really want to stay here all night
     All night
     All night




     Before you slip into unconsciousness
     I'd like to have another kiss
     Another flashing chance at bliss
     Another kiss
     Another kiss
     The days are bright and filled with pain
     Enclose me in your gentle rain
     The time you ran was too insane
     We'll meet again
     We'll meet again
     Oh tell me where your freedom lies
     The streets are fields that never die
     Deliver me from reasons why
     You'd rather cry
     I'd rather fly
     The crystal ship is being filled
     A thousand girls, a thousand thrills
     A million ways to spend your time
     When we get back
     I'll drop a line




     Well, she's fashionably lean
     And she's fashionably late
     She'll never rank a scene
     She'll never break a date
     But she's no drag
     Just watch the way she walks
     She's a twentieth century fox
     She's a twentieth century fox
     No tears, no fears
     No ruined years
     No clocks
     She's a twentieth century fox
     She's the queen of cool
     And she's the lady who waits
     Since her mind left school
     It never hesitates
     She won't waste time
     On elementary talk
     'Cause she's a twentieth century fox
     She's a twentieth century fox
     Got the world locked up
     Inside a plastic box
     She's a twentieth century fox, oh yeah
     Twentieth century fox, oh yeah
     Twentieth century fox
     She's a twentieth century fox




     Well, show me the way
     To the next whiskey bar
     Oh, don't ask why
     Oh, don't ask why
     Show me the way
     To the next whiskey bar
     Oh, don't ask why
     Oh, don't ask why
     For if we don't find
     The next whiskey bar
     I tell you we must die
     I tell you we must die
     I tell you, I tell you
     I tell you we must die
     Oh, moon of Alabama
     We now must say goodbye
     We've lost our good old mama
     And must have whiskey, oh, you know why
     Oh, moon of Alabama
     We now must say good-bye
     We've lost our good old mama
     And must have whiskey, oh, you know why
     Well, show me the way
     To the next little girl
     Oh, don't ask why
     Oh, don't ask why
     Show me the way
     To the next little girl
     Oh, don't ask why
     Oh, don't ask why
     For if we don't find
     The next little girl
     I tell you we must die
     I tell you we must die
     I tell you, I tell you
     I tell you we must die
     Oh, moon of Alabama
     We now must say goodbye
     We've lost our good old mama
     And must have whiskey, oh, you know why




     You know that it would be untrue
     You know that I would be a liar
     If I was to say to you
     Girl, we couldn't get much higher
     Come on baby, light my fire
     Come on baby, light my fire
     Try to set the night on fire
     The time to hesitate is through
     No time to wallow in the mire
     Try now we can only lose
     And our love become a funeral pyre
     Come on baby, light my fire
     Come on baby, light my fire
     Try to set the night on fire, yeah
     The time to hesitate is through
     No time to wallow in the mire
     Try now we can only lose
     And our love become a funeral pyre
     Come on baby, light my fire
     Come on baby, light my fire
     Try to set the night on fire
     You know that it would be untrue
     You know that I would be a liar
     If I was to say to you
     Girl, we couldn't get much higher
     Come on baby, light my fire
     Come on baby, light my fire
     Try to set the night on fire
     Try to set the night on fire
     Try to set the night on fire
     Try to set the night on fire




     Whoa, yeah!
     C'mon, yeah
     Yeah, c'mon, yeah
     Yeah, c'mon
     Oh, yeah, ma
     Yeah, I'm a back door man
     I'm a back door man
     The men don't know
     But the little girls understand
     Hey, all you people that tryin' to sleep
     I'm out to make it with my midnight dream, yeah
     'Cause I'm a back door man
     The men don't know
     But the little girls understand
     All right, yeah
     You men eat your dinner
     Eat your pork and beans
     I eat more chicken
     Than any man ever seen, yeah, yeah
     I'm a back door man, what
     The men don't know
     But the little girsl understand
     Well, I'm a back door man
     I'm a back door man
     Whoa, baby, I'm a back door man
     The men don't know
     But the little girls understand




     I looked at you
     You looked me
     I smiled at you
     You smiled at me
     And we're on our way
     No we can't turn back
     Yeah, we're on our way
     And we can't turn back
     'Cause it's too late
     Too late, too late
     Too late, too late
     And we're on our way
     No we can't turn back
     Yeah, we're on our way
     And we can't turn back
     I walked with you
     You walked with me
     I talked to you
     You talked to me
     And we're on our way
     No, we can't turn back
     Yeah, we're on our way
     And we can't turn back
     'Cause it's too late
     Too late, too late
     Too late, too late
     And we're on our way
     No, we can't turn back
     Yeah, we're on our way
     And we can't turn back
     'Cause it's too late
     Too late, too late
     Too late, too late




     Take the highway to the end of the night
     End of the night
     End of the night
     Take a journey to the bright midnight
     End of the night
     End of the night
     Realms of bliss
     Realms of light
     Some are born to sweet delight
     Some are born to sweet delight
     Some are born to the endless night
     End of the night
     End of the night
     End of the night
     End of the night
     Realms of bliss
     Realms of light
     Some are born to sweet delight
     Some are born to sweet delight
     Some are born to the endless night
     End of the night
     End of the night
     End of the night
     End of the night




     Time to live
     Time to lie
     Time to laugh
     Time to die
     Take it easy, baby
     Take it as it comes
     Don't move too fast if you want your love to last
     You've been movin' much too fast
     Time to walk
     Time to run
     Time to aim your arrows
     At the sun
     Take it easy, baby
     Take it as it comes
     Don't move too fast if you want your love to last
     You've been movin' much too fast
     Go real slow
     You like it more and more
     Take it as it comes
     Specialize in havin' fun
     Take it easy, baby
     Take it as it comes
     Don't move too fast if you want your love to last
     You've been movin' much too fast
     Movin' much too fast
     Movin' much too fast




     This is the end, beautiful friend
     This is the end, my only friend
     The end of our elaborate plans
     The end of everything that stands
     The end
     No safety or surprise
     The end
     I'll never look into your eyes again
     Can you picture what will be
     So limitless and free
     Desperately in need of some stranger's hand
     In a desperate land
     Lost in a Roman wilderness of pain
     And all the children are insane
     All the children are insane
     Waiting for the summer rain
     There's danger on the edge of town
     Ride the King's highway
     Weird scenes inside the gold mine
     Ride the highway West, baby
     Ride the snake
     Ride the snake
     To the lake
     To the lake
     The ancient lake, baby
     The snake is long
     Seven miles
     Ride the snake
     He's old
     And his skin is cold
     The West is the best
     The West is the best
     Get here and we'll do the rest
     The blue bus is calling us
     The blue bus is calling us
     Driver, where are you taking us?
     The killer awoke before dawn
     He put his boots on
     He took a face from the ancient gallery
     And he walked on down the hall
     He went into the room where his sister lived
     And then he paid a visit to his brother
     And then he walked on down the hall
     And he came to a door
     And he looked inside
     Father
     Yes son?
     I want to kill you
     Mother, I want to. . .
     C'mon baby, take a chance with us
     C'mon baby, take a chance with us
     C'mon baby, take a chance with us
     And meet me at the back of the blue bus
     This is the end, beautiful friend
     This is the end, my only friend
     The end
     It hurts to set you free
     But you'll never follow me
     The end of laughter and soft lies
     The end of nights we tried to die
     This is the end




	        . 

http://ezinfo.ucs.indiana.edu/~mmeiss/doors.html
http://softparade.narod.ru/doors.htm




~~~~~~~~~~~~~~~~~~~

Words and music by The Doors





Before you

Fm                  Cm
slip    into      unconsiousness I'd
Bb                  Db

Like to have      another kiss,  an-
F                   Bb7
oth   -   er        flashing

C         Bb        F         Eb          F         Eb
chance           at bliss,  another     kiss,     another
F         Db        Ab        Eb

kiss.
C7                  C7


The

days are bright and filled with pain, en-
close me in your gentle rain. The
time you ran was too insane, we'll meet again, we'll meet a-
gain.


[piano solo]
Fm                  Eb
Fm                  Eb
Fm        Db        Ab        Eb
C7                  C7



Oh,

tell me where your freedom lies, the
streets are fields that never die. De-
liver me from reasons why you'd rather cry, I'd rather
fly.


The
crystal ship is being filled, a
thousand girls, a thousand thrills. A
million ways to spend your time; when we get back, I'll drop a

line.







Intro:  Am   G   Gm   F

     Am           G
     She lives on Love Street,
     Gm              F
     lingers long on Love Street.
     Am        G
     She has a house and garden,
     Gm              F
     I would like to see what happens.
     Am                F
     She has robes and she has monkeys,
     Gm           F
     lazy diamond studded flunkies.
      Gm      Am         Bb            Fmaj
      She has wisdom and knows what to do,
      Gm     Fmaj    Bb      A7
      she has me and she has you.

(spoken words with chords)
  I see you live on Love Street,
  there's a store where the creatures meet.
  I wonder what they do in there,
  summer sunday and a year.
  I guess I like it fine  so far.
--------------------------------------------
  (unusual) chord diagrams:
 Gm - |355333|  Fmaj - |xo321o|  Bb - |113331|






                   Words and Music by The Doors


with vib. effect				       B(0.25)
|--------|---------|--------|------------|------|---------|---------------|
|--------|---------|--------|------------|------|---------|---------------|
|--------|---------|--------|------------|------|---------|---------------|
|--------|2---2-0-2|--------|2-2-2-0-2-0-|------|---------|---------------|
|--------|---------|--------|-----------2|0-----|0-0-0-3-0|---------------|
|--------|---------|--------|------------|------|---------|-0-------------|
 Riders on	   riders on 	       in-to this 	in-to this world

the storm	   the storm	       house were born     were thrown

|---------|--------------|-----------|-------------|----------------|
|---------|--------------|-----------|-------------|----------------|
|---------|--------------|0----------|-------------|----------------|
|2-0------|--------------|2----------|-------------|----------------|
|---2-0---|--------------|3----------|-------------|----------------|
|------3-0|--5-----------|-----------|-0-----------|-(0)------------|
       Like a dog 	  an actor out Riders on 	   There's a
	   without a bone   on loan.   on the storm
Rhy.Fig.1

|-----------------|------------|--------------------|
|-0---0-2---2-3---|---3-2---2--|--------------------|
|---0-----0-------|-0-----0---0|---repeat last-two--|
|-----------------|------------|------------bars----|
|-----------------|------------|--------------------|
|-----------------|------------|--------------------|
killer on the road,       his brain is squirming like a toad. Take


|----------7-7-|8-8---10-10-|-----------|---------------|
|-5--5-----7-7-|8-8---12-12-|0-0-2---2-3|---3-2---2-----|
|--------------|9-9---11-11-|-0----0----|-0-----0-------|
|--------------|------------|-----------|---------------|
|--------------|------------|-----------|---------------|
|--------------|------------|-----------|---------------|
 a long holiday		     let your            if you
			     childern play


(openD)give this man a ride sweet fa(openC)mily will die,

			end Rhy.Fig.1
|-----------------|-------|
|-0---0--2----2--3|---3--2|
|---0-------0-----|-0-----|
|-----------------|-------|
|-----------------|-------|
|-----------------|-------|
Gotta love your man.  Yeah.

Guitar solo			    B(0.5)             B(0.25)
|----------|-------------0|--0-0---|--------------|-----------|
|----------|----------0h2-|0----3-0|--------------|-----------|
|-------0--|-------0h2----|--------|2--2-0--------|-----------|
|2--2-2---2|----0h2-------|--------|------2-2--0--|-----------|
|----------|-0h2----------|--------|-------------2|0-0-3-0----|
|----------|--------------|--------|--------------|-----------|

|-----------------0---|----------|-------------|---2------2|
|-----------2-0-------|----------|-------------|---3------3|
|------2-0-----2h4--/4|-2-0----/4|-4-2-0-/4---0|---2------2|
|-2-0-----2-----------|-----2----|-------------|0--0------0|
|----2----------------|----------|-------------|-----------|
|---------------------|----------|-------------|-----------|

|----0--|------|------|-------------------|-------------------------|
|----1--|-0----|-(0)--|--------0h2---2--3-|-(3)---------------------|
|----0--|-0----|-(0)--|--4---4-----0------|-------------------------|
|--2----|-2----|-(2)--|----5--------------|-------------------------|
|--3----|------|------|-------------------|-------------------------|
|-------|------|------|-------------------|-------------------------|
Verse2:Girl you

With rhy.Fig.1
gotta love your man
Girl you gotta love your man.
Take him by the hand;
make him understand.
The world on you depends, our life will never end.
Gotta love your man.

Rhy.Fig.2
|----12--12---14--14-|--15--15---14--14------|
|----12--12---14--14-|--15--15---14--14------|
|----12--12---14--14-|--16--16---14--14------|
|--------------------|-----------------------|
|--------------------|-----------------------|
|--------------------|-----------------------|
Play Rhy.Fig2 24 times(use it for a model for improvisation)

|-0-----------|--(0)-------|-------------|------------------|
|-0-----------|--(0)-------|-------------|------------------|
|-0-----------|--(0)-------|-------------|------------------|
|-2-----------|--(2)-------|-------------|------------------|
|-------------|------------|-------------|------------------|
|-------------|------------|-------------|------------------|

Play first two bars of Rhy.Fig1 twice
then play all of Rhy.Fig.1 for final verse.

Guitar solo two:		    ~~~~~		B1R
|----------------|-------------------|----|-----------------------|
|0---0--2-----2h3|-------------------|----|-----------------------|
|--0-------0-----|9/11--9/11-9-7-9/11|----|9/11--11-9-7-9---------|
|----------------|-------------------|----|-----------------------|
|----------------|-------------------|----|-----------------------|
|----------------|-------------------|----|-----------------------|
			B(0.5)R			 PB_____R
|-----------------|--------------------|-------------------------|
|-----------------|--------------------|-------------------------|
|(9)-7-6--9--(9)/4|-(4)-6-----(6)---4-6|4---2--4-4----4-(4)------|
|-----------------|--------------------|-------------------------|
|-----------------|--------------------|-------------------------|
|-----------------|--------------------|-------------------------|
 B1		       B1_________R      B(0.5)________R
|-------|----------------|------------------|---------------------|
|-------|----------------|------------------|---------------------|
|4---4--|-4--2-------2-4-|-(4)-4--4---2--4--|---(4)-----4---------|
|-------|------4---4-----|------------------|---------------------|
|-------|----------------|------------------|---------------------|
|-------|----------------|------------------|---------------------|
			    Riders on the storm.
|--------------------|---------------|---------------------------|
|--------------------|---------------|---------------------------|
|/11----9---7----9/11|--(11)--11\9--7|(7)---6--7--6----4----2----|
|--------------------|---------------|---------------------------|
|--------------------|---------------|---------------------------|
|--------------------|---------------|---------------------------|
 Riders on the storm.______          Riders on the storm.
			      B1_____R	             B(1.5)_____R
|-------------------|-----------------|----------------|------------|
|-------------------|-----------------|----------------|------------|
|(2)--4--2----2--4-2|-(2)-4-2-4------4|(4)-2--4--2---4-|(4)-----4-2-|
|-----------4-------|-----------------|------------4---|------------|
|-------------------|-----------------|----------------|------------|
|-------------------|-----------------|----------------|------------|









e ---------0---------0-------------0------0-------|
B -------4---4-------4-------------4------4-------|
G -----4-------4-----4-------------4------4-------|
D ---4-----------4---4-------------4------4--4----|
A -2-----------------2----------------------------|
E ------------------------------------------------|

e -0--0--------0--------0---------0--------0---------0----------|
B -5----5--------5--------5---------5--------5---------5--------|
G -5------5--------5--------5---------5--------5---------5------|
D -5--------5--------5------------------5------------------5----|
A -----------------------------3------------------3-------------|
E --------------------------------------------------------------|

e ------------------------0-0-0-----0-0-0-----3-3-3-----2-2-2-----0-0-0----|
B -------------------------------------------------------------------------|
G ----0-0-0-----0-0-0------------0-----------------------------------------|
D -----------5---------5-------------------5---------5---------5-----------|
A -4-----------------------------------------------------------------------|
E -------------------------------------------------------------------------|


e ----0-0-0-----0-0-0-----0-0-0-----0-0-0----|
B -------------------------------------------|
G -------------------------------------------|
D -----------5-------------------5-----------|
A -4-------------------4---------------------|
E -------------------------------------------|


e ----0-0-0-----0-0-0-----0-0-0-----0-0-0----|
B -------------------------------------------|
G -------------------------------------------|
D -----------5---------5---------------------|
A -3-----------------------------3-----------|
E -------------------------------------------|



e ----0--------0--------0--------0---------0--------0--------0--------0-------

B ------4--------4--------4--------4---------4--------4--------4--------4-----

G --------0--------0--------0--------0---------0--------0--------0--------0---

D ----------4--------4--------4------------------4--------4--------4----------

A-2-------------------------------------2-------------------------------------

E----------------------------------------------------------------------------2



e -0--------0--------0--------0--------|

B ---4--------4--------4--------4------|

G -----0--------0--------0--------0----|

D -------4--------4--------4-----------|

A -------------------------------------|

E -------------------------------------|



e ----0--------0--------0--------0--------0--------0--------0--------0-------|

B ------4--------4--------4--------4--------4--------4--------4--------4-----|

G --------0--------0--------0--------0--------0--------0--------0--------0---|

D ----------4-----------------4----------------------------------------------|

A -3-----------------3-----------------2--------0----------------------------|

E -------------------------------------------------------3--------2----------|





e ----0----------------------------------|

B ----1--------------3--2-----------0----|

G ----0----------------------------------|

D ----2-----2--1--0-----------------7----|

A ----3--------------------3-------------|

E -0-----3--------------------3/7--------|



This Next part is where the Harpsichord starts



e -----------------|------------------------------------------|

B -0--1-----0------|----12--13------12------------------------|

G -------2-----0---|------------14------12--14--11--12--11----|

D -----------------|-2----------------------------------------|

A -----------------|------------------------------------------|

E -----------------|------------------------------------------|



e ---------------------------------|----------------------------------------|

B ----0------0-----0-----0------0--|----0-----0------0-----0-----0------0---|

G ---------------------------------|----------------------------------------|

D -9-----10-----7-----9------------|-------9-----10-----7-----9-------------|

A --------------------------10-----|-7------------------------------10------|

E ---------------------------------|----------------------------------------|



e -------------------------------------------------------------------|

B ----0-----0------0-----0-----0------0-----0-----0------0-----0-----|

G -------------------------------------------------------------------|

D -------9-----10-----7-----9------------7---------------------------|

A -7------------------------------10-----------9-----10-----7--------|

E -------------------------------------------------------------------|



e --------------12----------------------|

B --------15----------13----15----12----|

G --------------------------------------|

D --14----------------------------------|

A --------------------------------------|

E --------------------------------------|



e -------------12----------------------|

B -------15----------13----15----12----|

G -12----------------------------------|

D -------------------------------------|

A -------------------------------------|

E -------------------------------------|



e -------------12----------------------|

B -------15----------13----15----12----|

G -12----------------------------------|

D -------------------------------------|

A -------------------------------------|

E -------------------------------------|



e -----------------------------------------|

B -----0-----0------0-----0-----0------0---|

G -----------------------------------------|

D --------9-----10-----7-----9-------------|

A --7------------------------------10------|

E -----------------------------------------|





e -----------------------------------------|

B -----0-----0------0-----0-----0------0---|

G -----------------------------------------|

D --------9-----10-----7-----9-------------|

A --7------------------------------10------|

E -----------------------------------------|



e -----------------------------------------|

B -----0-----0------0-----0-----0------0---|

G -----------------------------------------|

D --------9-----10-----7-----9-------------|

A --7------------------------------10------|

E -----------------------------------------|



e --------------------------|-----------------------|

B -13------12---------------|-----------------------|

G -----14------12--11-------|--11--12--14--11--12---|

D ---------------------14---|-----------------------|

A --------------------------|-----------------------|

E --------------------------|-----------------------|



e ----------------------------------|------------------------|

B -----12---------------------------|------------10----------|

G -14------14--12--11--12--14--12---|-9--11--12------9--12---|

D ----------------------------------|------------------------|

A ----------------------------------|------------------------|

E ----------------------------------|------------------------|



e ----------------------------------------|

B ----0-----0------0-----0------0-----0---|

G ----------------------------------------|

D -7--------------------------------------|

A -------9-----10-----7-----10-----8------|

E ----------------------------------------|



e ----------------------|----------------------|----------------------|

B ----------------------|----------------------|----------------------|

G --------4--------4----|--------4--------4----|--------3--------3----|

D -----4--------4-------|-----4--------4-------|-----2--------2-------|

A --2--------2----------|--2--------2----------|--3--------3----------|

E ----------------------|----------------------|----------------------|



e -----8--7------7------------|--------------------|

B -10--------10-----10--8--7--|----7--------7------|

G ----------------------------|-9-----7--9-----9---|

D ----------------------------|--------------------|

A ----------------------------|--------------------|

E ----------------------------|--------------------|



e --------------7------------|-----------------------|

B -7--8--10--8-----10--8--7--|---------5--------5----|

G ---------------------------|-----6--------6--------|

D ---------------------------|-7--------7------------|

A ---------------------------|-----------------------|

E ---------------------------|-----------------------|





e -------------------------|-------------------------|

B -------------------------|-------------------------|

G ---------3-----------3---|---------4-----------4---|

D -----2-----------2-------|-----4-----------4-------|

A -3-----------3-----------|-2-----------2-----------|

E -------------------------|-------------------------|



e -------------------------|---------5---------------5-----|

B -------------------------|-5---------------7---8---------|

G ---------4-----------4---|-----5-------5-------5---------|

D -----4-----------4-------|-----------------5-------5-----|

A -2-----------2-----------|-------------------------------|

E -------------------------|-5-----------------------------|



e -----------------5-------5---|-6-------6---10---8---6---------|

B -----5---7---8-------8-------|-----8--------------------10----|

G -7---------------------------|--------------------------------|

D -----------------------------|--------------------------------|

A -----------------------------|--------------------------------|

E -----------------------------|--------------------------------|



e -8-------8---10---12---10---8---|----------13---8-----------------|

B -----7--------------------------|------9------------9--------9----|

G --------------------------------|-10--------------------10--------|

D --------------------------------|---------------------------------|

A --------------------------------|---------------------------------|

E --------------------------------|---------------------------------|



e ---------5-------------------|---------3---------------3---|

B -7---------------7-----------|-----------------5---6-------|

G -----7---------------7-------|-----3-------3---------------|

D -7-----------7-----------5---|-----------------3-------3---|

A -----------------5-----------|-----------------------------|

E -----------------------------|-3---------------------------|



e ---------3-------------------|---------1---------------1---|

B -5---------------5-----------|-----------------3---4-------|

G -----5-------5-------5-------|-----1-------1---------------|

D -----------------------------|-----------------1-------1---|

A -3---------------3-------3---|-----------------------------|

E -----------------------------|-1---------------------------|



e ----------------10---------------|-9-----------9---14------------|

B -11--------11-------11-------11--|---------10----------------10--|

G ------10----------------10-------|-----11---------------11-------|

D ---------------------------------|-------------------------------|

A ---------------------------------|-------------------------------|

E ---------------------------------|-------------------------------|



e ---------------------|----------------------------|

B -12------------------|--(12)----------------------|

G ---------------------|----------------------------|

D ---------------------|----------------------------|

A ---------------------|----------------------------|

E ---------------------|----------------------------|





e ---------1------------------|---------2---------------2---|

B -3---------------3---3------|-----------------4---5-------|

G -----3-------3--------------|-----2-------2---------------|

D -------------------------3--|---------------------2-------|

A -1---------------1----------|-----------------------------|

E ----------------------------|-2---------------------------|



e ---------------------|------------------------|

B -4-------------------|-(4)--------------------|

G -4-------------------|-(4)--------------------|

D -4-------------------|-(4)--------------------|

A -2-------------------|-(2)--------------------|

E ---------------------|------------------------|



The chords for the first verses run something like this:



Em       Am       B7        Em

Carry me caravan, take me away



Em         Am        B7          Em

Take me to Portugal, take me to Spain



Am    Em        B7/F#              Em

Andalusia, with fields full of grain



Am        Em       B7/F#       Em

I have to see you again and again



Em                 D7sus2     D7 D7sus4 D7    D7sus2   C

Take me Spainish caravan, yes I  know   you   can.



: 17, Last-modified: Mon, 20 Feb 2006 09:11:45 GMT